Music Olympus Home Music Olympus Home / Blink 182 guitar tabs

Blink 182 guitar tabs

Back to Blink 182 main page
Back to Blink 182 tabs index


Song: Adam's Song
Album: Enema of the State


Intro (Repeat twice)
----------------------------------------------------------------------------------------------
----------------------------------------------------------------------------------------------
----------------------------------------------------------------------------------------------
---------2---------2---------2----------2-----------2-----------2------------2-----------2----
-----0------3--0-----3---------3----------3-----------3-----------3-----------3------------3--
---------------------------3---------3-----------1-----------1-------------0----------1-------

Verse
----------------------------------------------------------------------------------------------
----------------------------------------------------------------------------------------------
-----5-5-5-5-5-5------------------2-2-2-2-2-2-------------------------------------------------
-----5-5-5-5-5-5--3-3-3-3-3-3-----2-2-2-2-2-2---3-3-3-3-3-3-----------------------------------
-----3-3-3-3-3-3--3-3-3-3-3-3-----0-0-0-0-0-0---3-3-3-3-3-3-----------------------------------
------------------1-1-1-1-1-1-------------------1-1-1-1-1-1-----------------------------------

Bridge before chorus

----------------------------------------------------------------------------------------------
----------------------------------------------------------------------------------------------
----------0---------0-----------2----------2--------------------------------------------------
-------------3---------3----0------3---0------3-------2---------2---------2----------2--------
-------3---------3-----------------------------------0-----3---0-----3---------3-----------3--
---------------------------------------------------------------------------1-----------1------

Chorus (2 parts)

1st Part
-------------------------------------------------------------------
-------------------------------------------------------------------
--------5-5-5-5-5-5----7-7-7-7-7-7---2-2-2-2-2-2-------------------
--------5-5-5-5-5-5----7-7-7-7-7-7---2-2-2-2-2-2--3-3-3-3-3-3------
--------3-3-3-3-3-3----5-5-5-5-5-5---0-0-0-0-0-0--3-3-3-3-3-3------
--------------------------------------------------1-1-1-1-1-1------

2nd part
--------------------------------------------------------------------
--------------------------------------------------------------------
------5-5-5-5-5-5---7-7-7-7-7-7---2-2-2-2-2-2-2-10-10-10-10-10-10-
------5-5-5-5-5-5---7-7-7-7-7-7---2-2-2-2-2-2-2-10-10-10-10-10-10-
------3-3-3-3-3-3---5-5-5-5-5-5---0-0-0-0-0-0-0--8--8---8---8---8--8-

Riff during Piano part

=====
G----5-
D--5---
=====


Song: Dammit
Album: Dude Ranch

CHORDS 

    
    C   G    A    F   Co   Go

|------------------------------|
|------------------------------|
|---5------------------5-------|
|---5---5----7----3---------5--|
|---3---5----7----3----3-------|
|-------3----5----1---------3--|


Riff:


|-------------------------------------------|
|-------------------------------------------|
|-------------------------------------------|
|------0-0-2-----0-0-2-----0-0-2-----2-2-0--|
|--3-3--------------------------------------|
|------------3-3-------5-5-------1-1--------|



Intro: Riff

Verse1:

C          G          A              F 
its alright to tell me what you think about me
C         G        A          F
i wont try to argue or hold it against you

(same chords)
i know that youre leaving you must have your reasons
the season is calling your pictures are falling down

Riff

Verse2:
the steps that i retrace the sad look on your face
the timing and structure did you hear he fucked her 
a day late a buck short i'm writing the report
on losing and failing when i move i'm flailing now

CHORUS:

Co                     Go                  A 
and its happened once again i'll turn to a friend
                 F                                  Co
someone who understands and sees through the master plan
                   Go                              A
but now everybodys gone and i've been here for too long
                   F                G
to face this on my own well i guess this is growing up 

Riff

Verse3:
and maybe i'll see you at a movie sneak preview
you'll show up and walk by on the arm of that guy
and i'll smile and you'll wave we'll pretend its OK
this charade it wont last when hes gona i wont come back

CHORUS2:
and it'll happen once again you'll turn to a friend
someone that understands and sees thru the master plan
but now everybodys gone and youve been here for too long
to face this on your own well i guess this is growing up

(solo thingy that i dont know)

well i guess this is growing up

repeat Riff till end

end on C

Song: Dumpweed
Album: Enema of the State

Standard Tuning

Riff A
E----------------------------------------
B----------------------------------------
G----------------------------------------
D---6-6h7p6-----4------6-6h7p6-----4-----
A----------------------------------------
E-0---------7-5---5--0---------7-5-------

Riff A (cont'd)
E----------------------------------------
B----------------------------------------
G----------------------------------------
D---6-6h7p6-----4------6-6h7p6--9--------
A-0------------------0------------0-9----
E-----------7-5---5----------------------

Riff B
E----------------------------------------
B-9p7p0-9p7p0--7p5p0-7-7p5p0--9p7p0-9p7p0
G----------------------------------------
D----------------------------------------
A----------------------------------------
E----------------------------------------

Riff B(cont'd)
E----------------------------------------
B-10p9p0-10p9p0--------------------------
G----------------------------------------
D----------------------------------------
A----------------------------------------
E----------------------------------------
Riff C(palm muted)
E-----------------------------------------
B-----------------------------------------
G-----------------------------------------
D-2-22-22-22--99-99-9--2-22-22-22--99-99-9
A-2-22-22-22--99-99-9--2-22-22-22--99-99-9
E-0-00-00-00--77-77-7--0-00-00-00--77-77-7

Riff C(cont'd)
E-----------------------------------------
B-----------------------------------------
G-2-22-22-22-----------2-22-22-22---------
D-2-22-22-22--99-99-9--2-22-22-22--99-99-9
A-0-00-00-00--99-99-9--0-00-00-00--99-99-9
E-------------77-77-7--------------77-77-7

Riff D
E----------------------------------------
B----------------------------------------
G----------------------------------------
D-22-2-22-2--99-9-99-9--77-7-77-7-99-9-99
A-22-2-22-2--99-9-99-9--77-7-77-7-99-9-99
E-00-0-00-0--77-7-77-7--55-5-55-5-77-7-77

Solo/Interlude Thingy(W/half ass palm mute)
E--------------------------------------------
B-9-7-0-5-0--7-5-0-5-0--9-7-0-5-0--10-9-0-5-7
G--------------------------------------------
D--------------------------------------------
A--------------------------------------------
E--------------------------------------------

Order:
Riff A x1
Riff B x2
Riff C x2
Riff A x1
Riff D x2
Riff B x2
Riff C x1
Riff A x1
Riff D x4
Interlude


Song: Family Reunion
Album: The Mark Tom and Travis Show

INTRO(let ring)
E-------------------
B-------------------
G-2-2-2-------------
D-2-2-2-------------
A-0-0-0-------------
E-------------------

Riff A(palm mute)
E---------------------------------------------------
B---------------------------------------------------
G-22222222-44444444-66666666-77777777---------------
D-22222222-44444444-66666666-77777777---------------
A-00000000-22222222-44444444-55555555---------------
E---------------------------------------------------

Riff B
E-----------------------------------
B-----------------------------------
G-----2-------2------2---------2----
D-------2-------2------2--0-0----2--
A-0-0-----2-2-----4-4---------------
E-----------------------------------

Riff C
E---------------------------------------------------
B---------------------------------------------------
G-22222222-44444444-66666666-77777777---------------
D-22222222-44444444-66666666-77777777---------------
A-00000000-22222222-44444444-55555555---------------
E---------------------------------------------------

Song: What's My Age Again?
Album: Enema of the State

Main Riff  Gtr 2
E|-------6---------6---------6-----------6--------------------|
B|-----7---7-----7---7-----7---7-------7---7------------------|
G|---4--------------------------------------------------------|
D|------------4-----------------------------------------------|
A|----------------------4-----------6-------------------------|
E|------------------------------------------------------------|

Chorus Gtr 1
E|------------------------------------------------------------|
B|------------------------------------------------------------|
G|-----6-6-/8-8--4-4-----6-6-/8-8--4-4-----6-6--8/8--4-4------|
D|--4--6-6-/8-8--4-4--4--6-6-/8-8--4-4--4--6-6--8/8--4-4------|
A|--4--4-4-/6-6--2-2--4--4-4-/6-6--2-2--4--4-4--6/6--2-2------|
E|--2-----------------2-----------------2---------------------|

E|-------------------------|
B|-------------------------|
G|-----6-6--8-88-8-8-6-66--|
D|--4--6-6--8-88-8-8-6-66--|
A|--4--4-4--6-66-6-6-4-44--|
E|--2----------------------|

Riff Two Gtr2
E|--6-----6-----6-----6---------------------------------------|
B|----7-----7------7------7-----------------------------------|
G|-------------------------------3h4-----3h4----3h4----3h4----|
D|----------------------------444-----444----444----444-------|
A|------------------------------------------------------------|
E|------------------------------------------------------------|

E|------2--------2-------2-------2-------2-------2------------|
B|------------------------------------------------------------|
G|---3---3----3---3----3--3----3--3----3--3----3---3----------|
D|--4-4---4--4-4---4--4-4--4--4-4--4--4-4--4--4-4---4---------|
A|------------------------------------------------------------|
E|------------------------------------------------------------|

E|------2--------2-----|
B|---------------------|
G|---3---3----3---3----|
D|--4-4---4--4-4---4---|
A|---------------------|
E|---------------------|

Gtr 1 plays Chorus and Gtr 2 plays this half way through
E|--6---6---6----------|
B|----7---7---7--------|
G|---------------------| Play A Bunch Of Times
D|---------------------|
A|---------------------|
E|---------------------|

Song: All the Small Things
Album: Enema of the State

Intro
E-----------------
B-----------------
G-----------------
D-5-3-------------
A-5-3-------------
E-3-1-------------

Riff A
E----------------------------------------------
B----------------------------------------------
G-55555555-1010101010101010--------------------
D-xxxxxxxx-x-x-x-x-x-x-x-x-5555555555-xxxxx-333
A-33333333-8-8-8-8-8-8-8-8-5555555555-xxxxx-333
E--------------------------3333333333-xxxxx-111

Riff B(Palm Mute)
E-------------------------------------------------
B-------------------------------------------------
G-55555555----------------------------------------
D-55555555-55555555-33333333-55555555-------------
A-33333333-55555555-33333333-55555555-------------
E----------33333333-11111111-33333333-------------
Bridge

E------------------
B------------------
G-5----------------
D-5----------------
A-3---------------- Say it aint so.......
E------------------

Riff C
E------------------------------------
B------------------------------------
G-5555555555555555-------------------
D-5555555555555555-555555555-33333333
A-3333333333333333-555555555-33333333
E------------------333333333-11111111

Riff D
E----------------------------------------
B----------------------------------------
G-55555555-101010-999-777777777----------
D-xxxxxxxx-x-x-x--xxx-xxxxxxxxx-xxxxx-333
A-33333333-8-8-8--777-555555555-xxxxx-333
E-------------------------------xxxxx-111

Interlude
E---------------------------------------------
B---------------------------------------------
G-5-5-5-5-5-5-5-5--2-2-2-2--4-4-4-4-----------
D--5-5-5-5-5-5-5-5--3-3-3-3--5-5-5-5----------
A---------------------------------------------
E---------------------------------------------

Ending(several times)
E-----------------
B-----------------
G-----------------
D-xx-3------------
A-xx-3------------
E-xx-1------------

Order:
Intro
Riff A x2
Riff B x4
Bridge
Riff C x2
Riff D x2
Riff B x2
Bridge
Riff C x2
Interlude x3
Riff C x4
Ending

Song: Carousel
Album: Buddha, Cheshire Cat 

    Here's the first part of the intro then it goes into a little bass riff 

E-|-------------------------------------------------------------------------

B-|-------------------------------------------------------------------------

G-|-7-------------------------7---------------------------------------------

D-|-7-4-5-5-4---9-4-5-5-4-----7-4-5-5-4---9-4-5-5-4-------------------------

A-|-5---------7-9---------7-5-5---------7-9---------7-5-4-5-----------------

E-|-------------7-------------------------7---------------------------------

   

    Next this is played along with the bass riff (palm muted)               

E-|-------------------------------------------------------------------------

B-|-------------------------------------------------------------------------

G-|-7-7-7-7-7--9-9-9-9-9-10-10-10-10-10--7-7-7-7-7--------------------------

D-|-------------------------------------------------------------------------

A-|-------------------------------------------------------------------------

E-|-------------------------------------------------------------------------

   

    This is the first part of the verse (no lyrics)                         

E-|-----------------|-------------------------------------------------------

B-|-----------------|-------------------------------------------------------

G-|-7-------7-------|-7---7-------------------------------------------------

D-|-7-7-9-5-7-7-9-5-|-7---7----this-is-probably-wrong-try-different-rhythms-

A-|-5-7-9-5-5-7-9-5-|-5-4-5-4-5-5-7-5-4-5-4-5-4-5-4-5-4-5-7-5-4-2-0---------

E-|---5-7-3---5-7-3-|-----------------------------------------------3-------

    

    Here's a little solo RIGHT before the verse                             

E-|-------------------------------------------------------------------------

B-|-------------------------------------------------------------------------

G-|-------------------------------------------------------------------------

D-|---------------------------------------------------0-0-4-0-0-7-5-4-0-----

A-|-9-9-9-10-9-7-9-9-9-10-9-12-12-10-9-7-9-9-9-10-9-7-----------------------

E-|-------------------------------------------------------------------------

    

    The verse and chorus are just these chords arpeggio picking             

E-|-------------------------------------------------------------------------

B-|-*verse*-------*chorus*--------------------------------------------------

G-|-7-------------7-5-------------------------------------------------------

D-|-7-7-7-5-------7-5-7-5---------------------------------------------------

A-|-5-7-7-5-------5-7-7-5---------------------------------------------------

E-|---5-9-3-----------5-3---------------------------------------------------

    

    During the bridge it's the verse chords and then this riff (twice) 

E-|-------------------------------------------------------------------------

B-|-------------------------------------------------------------------------

G-|-------------------------------------------------------------------------

D-|---4-5-7-5-4-------------------------------------------------------------

A-|-5-----------5---4-5-7-5-4-----6-7-9-7-6-----2-3-5-3-2-------------------

E-|---------------5-----------5-7-----------7-3-----------3-----------------


Song: Apple Shampoo
Album: Dude Ranch 

CHORDS


|------------------------------------------------------------------|
|------------------------------------------------------------------|
|-5-----------7--10------------------------------------------------|
|-5---7---3---7--10---5--------------------------------------------|
|-3---7---3---5---8---5--------------------------------------------|
|-----5---1-----------3--------------------------------------------|

INTRO:

  C5 (let it fade)
  She didn't mean to deceive you, believe me
           
  But sometimes the hardest part is conceiving

A5
  The good intentions that you had
F5
  Now only came to this
A5
  And although she saw the mark
D5    F5ii 
  The arrow missed.

  C5 (let it fade)
  It isn't exciting reciting the stories
           
  Of kind words turned hurting when routine get boring  

  A5
  Both getting tired of punk rock clubs
  F5
  And both playing in punk rock bands
  A5
  The start was something good
  D5  F5ii
  But some good things must end

RIFF 1:  

  C5-F5-G5-F5 (x2)


RIFF 2: (x2)

|--------------------------------------------------------|
|--------------------------------------------------------|
|--------------------------------------------------------|
|----2------2------3------3------5------5------3------3--|
|--3----3-3----------------------------------------------|
|--------------1-1----1-1----3-3----3-3----1-1----1-1----|

  And she said, "It could never survive
  With such differing lives
  One home, one out on tour again

  We may never come back
  The strike of a match
  The candle's buring at both ends."


RIFF 1:(x2)

RIFF 2:(x2)

   And now she knows too much
   And I'm too fucked up
   It's awkward trying to make my move

   I'll pretend that I'm fine
   Show up right on time
   But I know I'll never be that cool


RIFF 3:

   A5                              
   I never wanted to hold you back
   F5                         A5
   I'm just trying to hold on
   D5     F5ii        
   But my chance is gone

RIFF 4:

   C5  G5                  F5
   I   know / just where / I stand / a boy
   
   Trapped in the body of a man and
   C5                               D5
   I'll take what you're willing to give
                            F5
   And I'll teach myself to live
                            G5
   With a walk-on part of a background shot
          A5    B5         
   From a movie I'm not in


RIFF 1:(x4)
(3rd & 4th time with heavy palm mute and words)
  
    She's so important
    And I'm so retarded

RIFF 3:
    
    A5
    And now I realize
    F5                              A5
    I should have kissed you in L.A.
     
    But I drove home all alone
    D5            F5ii
    As if I had a choice, anyway

RIFF 5:           
    
    G5                   D5
    Where are you coming from?
                         F5
    What are you running from?
                         G5
    Is it so hard to see?
                          D5
    And if you're feeling scared
                         F5
    Remember the time we shared
                      G5
    You know it meant everything (everything)
                           A5         B5 C5
    You know that it meant everything to me
    (C5)
    You know that it meant everything to me


RIFF 1:(x2)


Song: Pathetic
Album: Dude Ranch 

CHORDS

    C   G   A   Fii  F   Gii

|----------------------------|
|----------------------------|
|---5-----------10-------12--|
|---5---5---7---10---3---12--|
|---3---5---7---8----3---10--|
|-------3---5--------1-------|

Riff:

|--1--3---1--3---1--3---0---0---0--|
|-------1------1------1---1---1----|
|----------------------------------|
|----------------------------------|
|----------------------------------|
|----------------------------------|

Intro: Riff (x3 and a half)

Verse1:

  C
i know i'm pathetic i knew when she said it
  Gii                    Fii
a loser a bum's what she called me when i drove her home
C
there's no more waiting and sure no more wasting
     Gii                    Fii
i've done all i can but she still wants to be left alone

(same chords)
you got you got you got to help me out
and i'll try not to argue
no one no one no one likes a drop out
mistakes are hard to undo

CHORUS:

A          C  G
don't pull me down 
              C   F
this is where i belong 
               (i think i'm different but i'm the same & i'm wrong)
A          C  G
don't pull me down 
              C   F
this is where i belong               this is where i belong
               (i think i'm different)

Riff (x3 and a half)

Verse2:
i think its disgusting believing and trusting
if i gave a fuck there would be nothing for me to prove
although its amusing its slightly confusing
i've done all i can but her ego is still hard to move
you got you got you got to help me out
and i'll try not to argue
no one no one no one likes a drop out
mistakes are hard to undo

repeat CHORUS


Riff (x4)

A, C-G, C-F
 
repeat CHORUS

end on C