Limp Bizkit tabs 'Full Nelson'

Back to Limp Bizkit guitar tabs
Back to Limp Bizkit index
Limp Bizkit
The Chocolate Starfish and the Hot Dog Flavored Water
TUNING C# F B E G# C# 


FULL NELSON

INTRO 
C#|-------------------- 
G#|------------------ 
E |------------------ 
B |---8--7---8--7----- 
F |------------------- 
C#|------------------- 

chorus 
----------------------------|| 
----------------------------|| 
----------------------------|| 
---------------HARMONICS----|| 
-something----3--4--4--4----|| 
----------------------------|| 
              HARMONICS 

"burn this mopther fucker" 
-------------------|| 
-------------------|| 
--3-3-3-3---2-2----|| 
--3-3-3-3---2-2----|| 
--1-1-1-1---0-0----|| 
-------------------||