Limp Bizkit 'My Generation'

Back to Limp Bizkit guitar tablatures
Back to Limp Bizkit index
TUNING C# F B E G# C# 

MY GENERATION

BEGGINING 
-------------------------| 
-------------------------| 
-------------------------|* = HARMONICS 
-------------------------| 
-------*-*---------------| 
-1-1-0-3-3--0-1-2--1-2---| 

------------------------------------------| 
------------------------------------------| 
------------------------------------------|- 
------------------------------------------|*  = Harmonics 
---------*---*------------*--*--------*---| 
-1-1-0---4---4---1-1--0---4--4--1--0--4---| 


-------------------------| 
-------------------------| 
-------------------------| 
--6--5---2---4--3--------| 
--6--5---2---4--3--------| 
--4--3---0---2--1--------| 

Final Slow (clean part) 
-------------------------------------------------| 
-------------------------------------------------| 
-------------------------------------------------| 
-------------------------------------------------| 
-------7------5h7----------7---------------------| 
0--0-----0--------0-0-0---------3----1-----------| 

FINAL HARD ROCK PART (sound like counterfit ending) 
-------------------------------------------------| 
-------------------------------------------------| 
-------------------------------------------------| 
-------------------------------------------------| 
-------7------5h7----------7---------------------| 
0--0-----0--------0-0-0---------3----1-----------| 

----------||--------------------------| 
----------||--------------------------| 
----------||----outro-----------------| 
--5-5-5---||--5-5-5-5-5-5-2-VOL-0-----| 
--5-5-5---||--5-5-5-5-5-5-2-----------| 
--3-3-3---||--3-3-3-3-3-3-0-----------|