Limp Bizkit bass tabs 'Nookie'

Back to Limp Bizkit guitar tabs
Back to Limp Bizkit index
Standard Tuning: EADG

Intro
G|--------------------------------------------|
D|--------------------------------------------|
A|--------------------------------------------|
E|--0---2-----4--5-4---0--2-------------------|

Verse - play variations
G|--------------------------------------------|
D|--5--4-------6------------------------------|
A|---------5----------------------------------|
E|--------------------------------------------|

Chorus
G|--------------------------------------------|
D|--------------------------------------------|
A|--------------------------------------------|
E|--0---2-----4--5-4---0--2-------------------|

Bridge
G|----------------------|---------------------|
D|----------------------|---------------------|
A|--0----------------x3-|---------------------|
E|--2-2-2-2--2-2-2-2----|--0-0-0-0--5-5-5--4--|

Interlude
G|--------------------------------------------|
D|--------------------------------------------|
A|--4-4-4-4---4-4-4-4---2-2-2-2---2-2-2-2-----|
E|--------------------------------------------|

G|--------------------------------------------|
D|--------------------------------------------|
A|--6-6-6-6--6-6-6-6--6-6--0-0-0-0---0-0-0-0--|
E|--------------------------------------------|

Outro
G|--------------------------------------------|
D|--------------------------------------------|
A|--------------------------------------------|
E|--0-----2-----------------------------------|