Limp Bizkit 'Rollin''

Back to Limp Bizkit guitar tabs
Back to Limp Bizkit index
TUNING C# F B E G# C# 

ROLLIN'



INTRO  
"throw your hands up, ladies....""chocolate starfish, were keep on rolling   
baby"  

F#:-13-13-13-13-13---9--9-9--9-9--9--||  
C#:----------------------------------||  


CHORUS  
"this move back back up tell me what u gonna do now, keep rollin rollin   
rolin what!"  

E :-4--2------------------------||  
B :-4--2---5--4---2/1-----------||  possible wah petal USED for  
F#:-2--0---5--4---2/1-(-bend-)--||  last note, since it's a full  
C#:--------3--2---0-------------||  note bend  


"i and p bizkit right here people in the house.....""where the fuck u at,   
shut the fuck up"  

B :--9--7---------------------------||  
F#:--------10--9--------------------||  
C#:------------------8/1-0-1--------||  
this is so wrong b ut it's the closest  


"rollenrollen rollen rollen rollen"  
shoprt 1 chord riff  D# power chord  

B :----4---------------||  
F#:----4---------------||  
C#:----2---------------||