Limp Bizkit 'Stuck' tabs

Back to Limp Bizkit guitar tabs
Back to Limp Bizkit index
LEGEND:
        
        *    -- palm-mute 
        H    -- hammer-on
        P    -- pull-off
        ~~~~ -- vibrato
        A.H. -- Artificial Harmonic
        N.H. -- Natural Harmonic
         /   -- slide up
         \   -- slide down
-------------------------------------------------------------


Verse: (this is tha funky shit wes plays in da background)
|----------------------|
|-14--14-14--14--15-15-|
|-14--14-14--14--14-14-|
|-12---------12--------|
|----------------------|
|----------------------|
|----------------------|


Pre-chorus:
|-----------------------------------|
|-----------------------------------|
|-----------------------------------|
|-----------------------------------|
|-----------------------------------|
|-2-2---5---6---5---6---5-5---------|
|-0-0---3-0-4-0-3-0-4-0-3-3-0-------|

Chorus
|-----------------------------------|
|-----------------------------------|
|-----------------------------------|
|-----------------------------------|
|-----------------------------------|
|-x-x10--9-x-x-5-x-6-x-5------------|
|-x-x-8--7-x-x-3-x-4-x-3------------|

Last time
|-----------------------------------|
|-----------------------------------|
|-----------------------------------|
|-----------------------------------|
|-----------------------------------|
|-x-x10--9-x-x-5-5-6-6-2------------|
|-x-x-8--7-x-x-3-3-4-4-0------------|

Interlude:
|-----------------------------------|
|-----------------------------------|
|-----------------------------------|
|-----------------------------------|
|--6-7-6-7-6------------------------|
|--4-5-4-5-4------------------------|
|-----------------------------------|

Bridge:
|-----------------------------|
|-14--14-X-X-14--14--14-14-14-|
|-14--14-X-X-14--14--14-14-14-|
|-----------------------------|
|-----------------------------|
|-----------------------------|
|-----------------------------|